Final Fantasy VI - The Devil's Lab

Devil’s Lab Gametab Tab

Hey all, here’s the tablature I wrote out for my latest VGM cover, FFVI’s The Devil’s Lab!

Video: https://www.youtube.com/edit?o=U&video_id=Ic3MdzS0Tic

Message me if you want the tabs for the solo I do in the video.

Also, I know that some of the tabs differ from some of the positions I do in the video: I wrote them out specifically so that each part can be played in the easiest position on the fretboard. Cheers!

Main Riff

Verse:

E :-------------------------------|-7–6--------------------|
B :----------9-8------------------|-----------8—9---------|
G :6----6–8-------9—5----6—9-|-------------------------|
D :—6---------------------------|-------------------------|
A :-------------------------------|-------------------------|
E :-------------------------------|-------------------------|

E :--------------------------|
B :7--------5----------------|
G :–4-6-8----8----6-4-------|
D :---------------------8-5-6|
A :--------------------------|
E :--------------------------|

E :-------------------------------|-7–6--------------------|
B :----------9-8------------------|-----------8—9---------|
G :6----6–8-------9—5----6—9-|-------------------------|
D :—6---------------------------|-------------------------|
A :-------------------------------|-------------------------|
E :-------------------------------|-------------------------|

E :--------------------------|
B :----9---------------------|
G :9-9-----9-11-11–9-8------|
D :---------------------11—|
A :--------------------------|
E :--------------------------|

Ending Riff:

E :-------------------------|-------------------12-11-10|
B :----------------9--------|9—9-11-12----------------|
G :9-8-7-6-5—5-8-------5-8|–8------------------------|
D :----------6--------------|---------------------------|
A :-------------------------|---------------------------|
E :-------------------------|---------------------------|

Low End Harmony

Verse:

E :-------------------------------|-------------------------|
B :-------------------------------|-5–5------5—5---------|
G :6–8-6–8-6*--------6–8-9—5-|-------------------------|
D :-------------------------------|-------------------------|
A :-------------------------------|-------------------------|
E :-------------------------------|-------------------------|

E :----------------6----9----|—9-11–9--9-11–9--9-11-12-11–9--8|
B :5--------9----------------|-------------------------------------|
G :--------------------------|-------------------------------------|
D :--------------------------|-------------------------------------|
A :--------------------------|-------------------------------------|
E :--------------------------|-------------------------------------|

Bridge:

E :------------------------|----------9----11–9-----9-|
B :-9—12-----------11----|10-12-12----12-------12----|
G :-----------11-----------|---------------------------|
D :------------------------|---------------------------|
A :------------------------|---------------------------|
E :------------------------|---------------------------|

E :----9-----9-----------|---------12----14-12----12-|
B :10----12----10--------|13-15-15----15-------15----|
G :----------------------|---------------------------|
D :----------------------|---------------------------|
A :----------------------|---------------------------|
E :----------------------|---------------------------|

E :—12----12-----------------|------------------|-9----------------|
B :13----15----13—13-12-11-10|-9-------11-------|---------11-------|
G :----------------------------|------------------|------------------|
D :----------------------------|------------------|------------------|
A :----------------------------|------------------|------------------|
E :----------------------------|------------------|------------------|

E :-----------------10-|
B :-9----------9-12----|
G :--------------------|
D :--------------------|
A :--------------------|
E :--------------------|

High End Harmony

Verse:

E :-------------------------------|-------------------------|
B :-------------------------9-----|12-11------8—9---------|
G :9-11-9-11-9*--------9-11-----9-|-------------------------|
D :-------------------------------|-------------------------|
A :-------------------------------|-------------------------|
E :-------------------------------|-------------------------|

E :--------------------14----|–12-14-12-12-14-12-12-14-16-14-12—|
B :9-------12-----14---------|-----------------------------------13|
G :--------------------------|-------------------------------------|
D :--------------------------|-------------------------------------|
A :--------------------------|-------------------------------------|
E :--------------------------|-------------------------------------|

Bridge:

E :12----------------14----|—11-11-12-11-14-12-11-12-|
B :-----12----14-----------|14-------------------------|
G :------------------------|---------------------------|
D :------------------------|---------------------------|
A :------------------------|---------------------------|
E :------------------------|---------------------------|

E :—12-11-12-----------|—14-14-15-14-17-15-14-15-|
B :14----------14--------|17-------------------------|
G :----------------------|---------------------------|
D :----------------------|---------------------------|
A :----------------------|---------------------------|
E :----------------------|---------------------------|

E :—15-14-15-----------------|------------------|------------------|
B :17----------17—17-16-15-14|13-------14-------|16-------14-------|
G :----------------------------|------------------|------------------|
D :----------------------------|------------------|------------------|
A :----------------------------|------------------|------------------|
E :----------------------------|------------------|------------------|

E :-----------12-11-10-|
B :12------------------|
G :--------------------|
D :--------------------|
A :--------------------|
E :--------------------|

Bass Line

Verse:

G :-------------------------------|-------------------------|
D :-------------------------6-----|-------------------------|
A :----------7-------6-7–9-------|-------------------------|
E :9----9--------8-9------------8-|-9–9-–8-9—9-----—|
B :-------------------------------|-------------------------|

G :--------------------------|-------------------------------------|
D :---------6----------------|-------------------------------------|
A :7—7--------7–9-9-------|-------------------------------------|
E :---------------------7-7-8|9–9----------8–9--9--------------|
B :--------------------------|-------------------------------------|

Bridge:

G :----------------------|---------------------------|
D :-7–7--------7-7------|---------10----------10----|
A :----------------------|---------------------------|
E :-------5---------5-5-7|-8–8-----------8–8-------|
B :----------------------|---------------------------|

G :----------------------------|------------------|------------------|
D :------10---------10–9--8–7|-6-6-------------|------------------|
A :----------------------------|----------9-9-
—|-7-7-----7-7-—|
E :-8–8--------8-8------------|------------------|------------------|
B :----------------------------|------------------|------------------|

Cool Arpeggio Riff Effect

E :------------------9------------|-------------9-----------|
B :--------------------8----------|---------------8---------|
G :----------------9------9-------|-----------9-----9-------|
D :-------------------------6-----|-------------------6-----|
A :---------------------------7—|---------------------7—|
E :-----------------------------9-|-----------------------9-|

============================================================================

Badass

1 Like

Thank you!