Genshin impact - "Forsaken child of ancient times" or "Quingce village at night"

With the release of the game some weeks ago on PS4 i`ve been playing it a lot. The OST is amazing imo, these two are my personal favourites, if someone is interested in tabbing them i would really appreciate it. Thanks :smile:

1 Like

I don’t think I ever tabbed a waltz before.


forsakenchild.txt (5.9 KB)
Child.zip (2.2 MB) <- contains a .gp and .gp5 file

Forsaken Child of Ancient Times
~ Genshin Impact
by Yu-Peng Chen
tabbed by sosss12
Steel Guitar (Capo 1)
      E  E  E  E  E  E     E  E  E  E  E  E     E  E  E  E  E  E   
E||---------------------|--------------------|--------------------|
B||------1-----1-----1--|-----0-----0--1-----|-----3-----3-----3--|
G||*--4-----4-----4-----|--2-----2--------2--|--5-----5-----5-----|
D||*--------------------|--------------------|--------------------|
A||---0-----------------|--L-----------------|--0-----------------|
D||---------------------|--------------------|--------------------|


                           NH                     NH                 
  E  E  E  E  E  E         E  E  E  E  E  E       E  E  E  E  E  E   
-----------------0---||--<>7-----------------|----------------------|
-----1-----1--3------||----------0-----0-----|-------0-----0--------|
--4-----4-----------*||-------5-----5-----5--|----------------5-----|
--------------------*||----------------------|----7-----7--------7--|
--L------------------||----0-----------------|--<>7-----------------|
---------------------||----------------------|----------------------|


                                      >       NH                 
  E  E  E  E  E  E     E  E  E  E  E  E       E  E  E  E  E  E   
--------------------|-----1--3--5--7--8--|--<>7-----------------|
-----3-----3-----3--|--0-----------------|----------0-----0-----|
--5-----5-----5-----|--------------------|-------5-----5-----5--|
--------------------|--------------------|----------------------|
--0-----------------|--------------------|----0-----------------|
--------------------|--------------------|----------------------|


    NH                                                           
    E  E  E  E  E  E     E  E  E  E  E  E     E  E  E  E  E  E   
----------------------|--------------------|--------------------|
-------0-----0--------|-----3-----3-----3--|--0-----------0--1--|
----------------5-----|--5-----5-----5-----|--------0--2--------|
----7-----7--------7--|--------------------|-----3--------------|
--<>7-----------------|--0-----------------|--------------------|
----------------------|--------------------|--------------------|


  >    .    .       >    .    .       >    .    .       >    .    .      
  Q    Q    Q       Q    Q    Q       Q    Q    Q       Q    Q    E  E   
--0--------------|-----------------|--0--------------|-------3----------|
-----------------|--3--------------|-----------------|--3---------------|
-----------------|------------2----|------------4----|---------------5--|
------------0----|-----------------|-------5----5----|-------5----5-----|
-------0----0----|-------0----0----|-----------------|------------------|
--0--------------|--0--------------|--5--------------|--5---------------|


  >    .    .        >     .    .       >    .    .       >                  
  Q    Q    Q        Q     Q    Q       Q    Q    Q       E  E  E  E  E  E   
-----------------|-------------------|-----------------|--0-----------------|
--0--------------|--(0)--------------|--0----1----3----|-----------------0--|
------------0----|--------------0----|-----------------|--------------2-----|
-------2---------|---------2----2----|-----------------|-----------2--------|
--3--------------|---3---------------|-------0----2----|-----0--2-----------|
-----------------|-------------------|--2--------------|--2-----------------|


                .       >    .    .       >    .    .       >    .    .      
    Q      Q    Q       Q    Q    Q       Q    Q    Q       Q    Q    E  E   
|---0----------------|-----------------|-----------------|------------------|
|---1----------------|-----------------|-------0---------|--3------------0--|
|*--2----1g2---------|--2--------------|------------5----|-------5----------|
|*--3-----------3----|-----------------|--5----5----5----|-------5----5-----|
|--------------------|-------3----3----|--5--------------|------------------|
|--------------------|--3--------------|--5--------------|--5---------------|

                                    1. Ending
  >    .    .       >    .    .       >    .    .       >    .    .       
  Q    Q    Q       Q    Q    Q       Q    Q    Q       Q    Q    Q       
-----------------|-----------------|-----------------|------------------||
--0--------------|-----------------|------------0----|--1----0----------||
--0---------0----|-----------------|--0----2---------|------------2----*||
--2----2---------|--2--------------|--2----2----2----|-------2----2----*||
--3--------------|--3--------------|--0--------------|--0---------------||
-----------------|-------2----2----|-----------------|------------------||

2. Ending
  >    .    >       >            .      .        
  Q    Q    Q       S  H         Q      S  E.    
-----------------|-----------------------------||
--0--------------|-----------------------------||
------------2----|--2S-1-----------------------||
--2---------2----|--2--------------------------||
--2----2----2----|--2-----------(2)----(2)-----||
--2--------------|--2--------------------------||

Da Capo



Duration Legend
---------------
W - whole
H - half
Q - quarter
E - 8th
S - 16th
T - 32nd
X - 64th
. - note dotted
|-n-|  - n-tuplets