hololive-EN - Takanashi Kiara Standby BGM

kiara.txt (2.2 KB)
kiara.zip (946.2 KB) <- contains a .gp file

I’m not really sure if this even belongs on gametabs since hololive only qualifies as “Anime” by the most loose definition of that word.

Takanashi Kiaras Standby BGM
~ Hololive EN
originally from DOVA-SYNDROME (a stock music website https://dova-s.jp/)
composer unknown as far as I am aware
tabbed by sosss12

NOTES:
try to shorten bass notes for a better effect. the audio example may help with this
notes in () are optional and should not dominate

Steel Guitar
BPM=120
    -A-                        -F#-        -G#-
     Q    E  E  E  E  E  S S    E  E  E  E  E  E  E  E   
E||--------------------------|--------------------------|
B||----------0-----------2-3-|--2--0-----0--------------|
G||--2-----------------------|--------2-----------------|
D||-------2------------------|--------------2--------2--|
A||--0----0-----0--------0---|--------------------------|
E||----------------x--x------|--2--2-----2--4--4--x--4--|

 -A-                        -F#-        -G#-           -D-     -C#-
  Q    E  E  E  E  E  S S    E  E  E  E  E  E  E  E     Q    E  Q    E  E  E   
--------------------------|-----------2--0--------4--|--5----4--2----0-----2--|
----------0-----------2-3-|--2--0--------------------|------------------------|
--2-----------------------|--------2-----------------|------------------------|
-------2------------------|--------------------------|--0----0----------------|
--0----0-----0--------0---|--------------------------|----------4-------------|
----------------x--x------|--2--2-----2--4--4--x--4--|---------------x--x-----|

 -F#-     -G#-             -D-                        -A-
  E  E  E  Q    E  E  E     E  E  E  E  E  E  E  E     Q    E  E  E  E  Q       
--0----------------------|----------------------(0)-|-------------------------||
-----2--0----------0--2--|--3--2----(0)(2)---(2)----|------(3)(2)-------------||
-----------2----2--------|--------2-----------1--2--|--2---------(2)---------*||
-------------------------|--0-----0--0--------------|------------------------*||
-------------------------|--------------------------|--0----0--0-----0--------||
--4-----4--2----2--x-----|-----------------x--x-----|-------------------x-----||


Duration Legend
---------------
W - whole
H - half
Q - quarter
E - 8th
S - 16th
T - 32nd
X - 64th
. - note dotted
|-n-|  - n-tuplets
1 Like

Yea I would say that this doesn’t fit in with the rest of tabs on this site, but I would like if there was an option to upload these kind of tabs onto your profile on the main site.

fun tab

If the music is stock, you can post it here