Please do this song


This is got to be my favorite song in the whole game: It is the battle theme for “Super Mario RPG Legend of the Seven Stars.”

Fun song, but there is already a tab!

https://www.gametabs.net/super-mario-rpg/fight-against-monsters

If the bass notes are too tricky, don’t play them and focus on the main melody; either play both notes if you want the harmony or even just the higher of the two.

Yeah I noticed but I am but a beginner, and I have not become all that great at playing gutiar yet. So I was hoping someone would do one that was a bit easier.

That’s why I said to ignore the bass/harmony notes and just focus on the melody. Here is the tab with the melody isolated. Should be easier to read this way:

     H.           Q          Q    E.  E  E  S E  E     Q    E.  E  E  S E  E   
E||---------------------||--------------------0-----|-------------------0-----|
B||---------------------||------------0--0--0----4--|-----------0--0--0----4--|
G||---------------------||*--1----2-----------------|--1----2-----------------|
D||---------------------||*-------------------------|-------------------------|
B||---------------------||--------------------------|-------------------------|
E||---------------------||--------------------------|-------------------------|


  Q    E.  E  E  S E  E     Q    E.  E  E  S E  E     Q    E.  E  E  S E  E   
-------------------0-----|-------------------0-----|--0----------------------|
-----------0--0--0----4--|-----------0--0--0----4--|-------4---2--0--0-2--4--|
--1----2-----------------|--1----2-----------------|-------------------------|
-------------------------|-------------------------|-------------------------|
-------------------------|-------------------------|-------------------------|
-------------------------|-------------------------|-------------------------|


  E  E  E  E  E  E  E  E     Q    E.  E  E  S E  E     E  E  E  E  H            
--0-----------------------|--0----------------------|-----------0--L-----------|
-----4--2--0--------------|-------4---2--0--0-2--4--|--0--2--4-----------------|
-----------------2--1-----|-------------------------|--------------------------|
-----------------------4--|-------------------------|--------------------------|
--------------------------|-------------------------|--------------------------|
--------------------------|-------------------------|--------------------------|


  Q    E.  E  E  S E  E     Q    E.  E  E  S E  E     Q    E.  E  E  S E  E   
-------------------0-----|-------------------0-----|-------------------0-----|
-----------0--0--0----4--|-----------0--0--0----4--|-----------0--0--0----4--|
--1----2-----------------|--1----2-----------------|--1----2-----------------|
-------------------------|-------------------------|-------------------------|
-------------------------|-------------------------|-------------------------|
-------------------------|-------------------------|-------------------------|


  Q    E.  E  E  S E  E      Q     E   S E  E  S E   E   
-------------------0-----|--12----11--11-9--7--7-9--11--|
-----------0--0--0----4--|------------------------------|
--1----2-----------------|------------------------------|
-------------------------|------------------------------|
-------------------------|------------------------------|
-------------------------|------------------------------|


   E   E  E  E  E  E  E   E      Q     E   S E  E  S E   E   
--12--11--9--7---------------|--12----11--11-9--7--7-9--11--|
-----------------------------|------------------------------|
-----------------------------|------------------------------|
-----------------------------|------------------------------|
-----------------------------|------------------------------|
-----------------------------|------------------------------|


  E  E   E   E  E  E  E  E     
--7--9--11--12---------------||
-----------------------------||
-------------------2--1-----*||
-------------------------4--*||
-----------------------------||
-----------------------------||

I got rid of the 1. and 2. repeat endings, since those are not in the original song https://www.youtube.com/watch?v=UNADbGeY2vQ

1 Like

Thanks man.