[Request] Fire Emblem Fates - Fingerstyle Lost In Thoughts All Alone (if ~ひとり思う~)

Requesting a fingerstyle/classical version of FE Fates theme:

Much appreciated!

As luck would have it i started this one a few years back!! Only have the early bit though, sorry…

later on the key changes up a tone so if you shift capo from 4 to 6 you will keep true to the original

Capo 4
Drop D
60 BPM
3/4 Time

   S  S  S  S  S  S  S  S  S  S  S  S    S  S  S  E.   E   E   E     S  S  S  S  S  S  S  S  S  S  S  
E|-0--------------3--0--------------3--|-0-------------------------|-------------------------------------|
B|-------0--1--3-----------0--1--3-----|---------------3---1---0---|----------------3-----------------3--|
G|-------------0-----------------0-----|-------0--2----0-----------|-2-----------0-----2-----------0-----|
D|----2-----------------2--------------|-------------------2---0---|-------2--3--------------4--5--------|
A|-0-----------------------------------|----3----------------------|----0-----------------2--------------|
D|-------------------5-----------------|-3-------------------------|-0-----------------2-----------------|


   S  S  S  S  S  S  E   Q      S  S  S  S  S  S  S  S  S  S  S  S    S  S  S  E.   E   E   E  
E|-------------0-----0--------|-0--------------3--0--------------3--|-0-------------------------|
B|----------------3------0----|-------0--1--3-----------0--1--3-----|---------------3---1---0---|
G|-2-----0--2--------2---1----|-------------0-----------------0-----|-------0--2----0-----------|
D|-------------------4--------|----2-----------------2--------------|-------------------2---0---|
A|----3-----------------------|-0-----------------------------------|----3----------------------|
D|-3-----------------2---2----|-------------------5-----------------|-3-------------------------|


   S  S  S  S  S  S  S  S  E   S  S    S  S  S  S  S  S  Q.
E|--------------------------------0--|-------------0--5--5-----|
B|----------------3------------------|----------3--------2-----|
G|-2-----------0-----2---------0-----|-2-----2-----------------|
D|-------2--3--------------2---------|----2--------------------|
A|----0-----------------2------------|-0-----------------------|
D|-0-----------------2---------------|-------------------------|

lost in thoughts all alone.gp5 (2.5 KB)
lost in thoughts all alone.txt (1.9 KB)