Xenosaga - Kokoro

This was tabbed by sosss12 and not sosss13. Note that this is a shortened version of the song.
Tabs: kokoro.zip (3.6 KB)
Midi: kokoro.mid (7.2 KB)

Details:
Kokoro
~ Xenosaga
Composed by: Yasunori Mitsuda
Arranged and tabbed by: sosss12

Track 1 (Capo 1)
       S S S E  S S E  S S E  S S S    S S S E  S S E  S S E  S S S  
E ||----------------0---------------|---------------0---------------|
B ||-------0-3----0------0-0----0-0-|--L---0-3----0------0-0--0-----|
F#||*----0------0------0------0-----|----0------0------0--------0---|
D ||*-------------------------------|-----------------------------0-|
A ||---2----------------------------|-------------------------------|
E ||--------------------------------|-------------------------------|


        >  >    >      >       >             >  >    >     >  > > >  
  S S S T  S. S S E  S S S S S S S    S E  S T  S. S E.  S E  S S S  
----------------0-L----------------|-----------------0--------------|
------0-2S-3--L-L-L--L-0-L-L---0-L-|--L-L--0-2S-3----------0--0-----|
----1---------1------1-------1-----|----1----------1-----1------1---|
-----------------------------------|------------------------------0-|
-----------------------------------|--------------------------------|
--3--------------------------------|--------------------------------|


                                              >    >     > >  
  S S S E  S S E  S S E  S S S    S S S E  E  E  S E.  S S S  
---------------0---------0-L-L-|--L-L-L-L------------------0-|
------0-3----0------0-L----0-L-|------0-L-----3--L-2---L-3---|
----0------0------0------------|----0------0-----0-----------|
-------------------------------|-----------------------------|
--2----------------------------|-----------------------2-----|
-------------------------------|-----------------------------|


              >      >     >          >  >    >     >  >  >    
   S S S E  S S E  S E.  S E     E  S T  S. S E.  S E  E  S S  
--/2-L-L-L----0-L-------------|---------------0---------------|
-------0-3--L-L-L--L-0-----0--|--L--0-2S-3----------0--0--2---|
-----1------1------1-----1----|--1----------1-----1-------1---|
------------------------------|-----------------------------0-|
------------------------------|-------------------------------|
---3--------------------------|-------------------------------|


  Q    S S S E.  E  E  E     Q    S S Q.     E  E     Q    S S S S E  E  E  E   
--------------------------|------------------------|---------------------------|
--3----L---L-L---3--2-----|--0----L-L-L------0--2--|--3----L---0-3-L--3--2-----|
--0----L---0-L---------3--|--1----L---1------------|--0------0--------------3--|
--0----L-0----------------|--0----L-0--------------|--0------------------------|
--2----L---L-L------------|------------------------|--2----L-------------------|
--------------------------|--3----L-L-L------------|---------------------------|


                                           >                                   
  Q    S S S Q    S E  E     S S S E  S E  Q.     E     Q    Q    E  E  E  E   
-----------------------0--|--2-L-L-L--L-L------------|------------------------|
--0----L-L---0----L-3-----|--------0-------0------0--|------------------0--2--|
--1----L---1-L----L-------|------0------0------------|--3----L-------3--------|
--0----L-0-L-L----L-------|----2------2--------------|------------4-----------|
--------------------------|--------------------------|-------4----------------|
--3----L-L-L-L----L-------|--0-----------------------|--2---------------------|


                   >       >             >  >    >     >  > > >  
  S S Q    S S S S S S S S S S    S E  S T  S. S E.  S E  S S S  
-------------0-----------------|-----------------0--------------|
--3-2-0----L-L-L-L-0-L-L---0-L-|--L-L--0-2S-3----------0--0---2-|
-----------1-----1-------1-----|----1----------1-----1------1---|
-------------------------------|------------------------------0-|
-------------------------------|--------------------------------|
--3----------------------------|--------------------------------|


  Q    S S S E.  E  E  E     E  S E  S E.  S E  E  E   
--------------------------|------------0--------------|
--3----L-----3---3--2-----|--0------------------0--2--|
--0----L---0-----------3--|-------1--1-------1--------|
--0----L-0----------------|-----0----------0----------|
--2----L------------2-----|---------------------------|
--------------------------|--3------------------3-----|


  S S S E  S E  E  E  E  E     E  S E  S E.  S E  E  E   
----------------------0-----|------------0-----------0--|
--3----------3--3--3-----2--|--0------------------3-----|
------0-0--0----------------|-------1--1-------1--------|
----0--------------0--------|-----0----------0----------|
--2-------------------2-----|---------------------------|
----------------------------|--3---------------------3--|


                >                                        
  S S S E  S E  Q    E  E     S S E  S S E  S E.  E  E   
--2-L-L-L--L---------------|----------------------------|
--------0----0--0-------0--|-------------2--------0--2--|
------0--------------------|--3-L-----------------------|
----2------2---------------|------4----4------4---------|
---------------------------|----4----4------4-----------|
--0------------------0-----|--2-------------------2-----|


  S  S E  E  E  E  E  E  E     E  E  E  S S E  E  E  E   
----------------------0--2--|--0-----5---------------5--|
--3s-2-0-----0--2--3--------|-----3--0------0--0--3-----|
----------3-----------------|--------3----3-3-----3-----|
----------------------------|--------2--2---2-----2-----|
----------------------------|--0-----0------0-----0-----|
--3-------------------3-----|---------------------------|


  Q    Q    Q    E  E     E  E  E  S S E  E  E  E     E  E  E  S S E  Q    E   
--5---------2----------|-----------0------------3--|--3--------5-3-2----------|
-------0------------3--|--0-----0---------0--3-----|--------------------------|
-------0---------0-----|-----1---------------------|-----3---------3----------|
-----------------0-----|--0-----0----0-------0-----|--0-----0------0--0----0--|
--2----2---------2-----|--2--------2---2-----------|--------0------0----------|
-----------------------|--3-----3------------3-----|--------------------------|


  E  S E.  E  S S E  E  E     E  S S Q    E  S S E  E   
--0--0-0---2------------5--|--5-----------2------------|
------------------3--3-----|---------0--------------3--|
-----------3------3--------|-------0-0-----------0-----|
--0--------0----0-0--------|-----0-------------0-0-----|
-----------0--0---0--------|--2------2-------2---2-----|
---------------------------|---------------------------|


  E  E  E  S S E  E  E  E     E  S S E  S S E  Q    E   
-----------0------------3--|--3---------5-3-2----------|
--0-----0---------0--3-----|---------------------------|
-----1---------------------|-------3--------3----------|
--0-----0----0-------0-----|--0------0------0--0----0--|
--2--------2---2-----------|-----0---0------0----------|
--3-----3------------3-----|---------------------------|


  E  S E.  E  S S E  E  E     E  E  Q    S S E  E  E   
--0--0-0---2---------2--3--|--L--0-----------0--2-----|
---------------------------|-----------------------3--|
-----------3------3--------|--1--------------1--------|
--0--------0----0-0-----0--|---------------2----2-----|
-----------0--0---0--------|--3-----3----3---3--------|
---------------------------|--------------------------|


                                                                NH      NH    
  Q    E  S S Q    E  E     Q.     E  Q    E  E     H           Q       Q     
-------------------------|------------0----------|---------------------------|
--2----0------0-------0--|--3------3--2-------0--|--L------------------------|
------------0-0----------|--1---------0----3-----|---------------------------|
----------0---0----0-----|--2-----------------0--|--L--------<>12----<>12----|
--2----2------2----2-----|--2---------0-------2--|--L------------------------|
-------------------------|--0---------2-------3--|--L------------------------|


     NH      NH      NH      NH                            
     Q       Q       Q       Q         H.           E  E   
-----------------------------------||---------------------|
-----------------------------------||--L------------0--2--|
----------------------------------*||---------------------|
--<>12----<>12----<>12----<>12----*||--L------------------|
-----------------------------------||--L------------------|
-----------------------------------||--L------------------|


  H.           E.  S    E.  S H        E  E     H.           E  E   
---------------0-----|-----------------------|------------------0--|
--3----------------2-|--0-----0--------0--2--|--3------------3-----|
--0------------------|------3----------------|--0------------------|
--0------------------|--0--------------------|--0------------------|
--2------------0-----|--2--------------------|--2------------------|
---------------------|--3--------------------|---------------------|


  E  T  S. H        E  E     H        E  E  E  E     Q    H.            
--2--2S-3--0--------L--2--|--3-----------3--2--0--|--------------------|
--1-----------------------|-----------------------|--2----0------------|
--1-----------------------|-----------------------|--0-----------------|
--------------------------|--2--------------------|--0-----------------|
--3-----------------3-----|--2--------------2-----|--2-----------------|
--------------------------|--0--------0-----------|--------------------|


  Q.     E  Q    E  E     W                  
------------0----------|-------------------||
--3------3--2-------0--|--L----------------||
--1---------0----3-----|-------------------||
--2-----------------0--|--L----------------||
--2---------0-------2--|--L----------------||
--0---------2-------3--|--L----------------||




Duration Legend
---------------
W - whole
H - half
Q - quarter
E - 8th
S - 16th
T - 32nd
X - 64th
. - note dotted
|-n-|  - n-tuplets


Tablature Legend
----------------
L - tied note
x - dead note
g - grace note
(n) - ghost note
> - accentuded note
NH - natural harmonic
AH - artificial harmonic
TH - tapped harmonic
SH - semi harmonic
PH - pitch harmonic
h - hammer on
p - pull off
b - bend
br - bendRelease
pb - preBend
pbr - preBendRelease
brb - bendReleaseBend
\n/ - tremolo bar dip
\n - tremolo bar dive
-/n - tremolo bar Release up
/n\ - tremolo bar inverted dip
/n - tremolo bar return
-\n - tremolo bar Release down
S - shift slide
s - legato slide
/ -  slide into from below or out of upwards
\ -  slide into from above or out of downwards
~ - vibrato
W - wide vibrato
tr - trill
TP - tremolo picking
T - tapping
S - slap
P - pop
< - fade in
^ - brush up
v - brush down
3 Likes

Since new users can only post 2 links per message I’ll have to include an audio example separately

Thanks for the tab, cant wait to try it out

Wow! It’s awesome!